Arctic Monkeys - Bakery Live (var.2) Tablature guitare télécharger gratuitement ou jouer en ligne

Tablature guitare pour Bakery Live (var.2) de Arctic Monkeys télécharger gratuitement et lire ou jouer en ligne: fichier .txt, 3.38 kb a 325 vues et 0 téléchargements.

Télécharger tablature guitare "Bakery Live (var.2)" (Arctic Monkeys)

Arctic Monkeys Nom du groupe
Bakery Live Nom de la chanson
Tablatures guitare Type de partition
3.38 kb Taille du fichier
.TXT Type de fichier
325 vues
0 téléchargements
 
Es-tu un robot?

Bakery Live (var.2) tablature guitare lire et jouer en ligne

                    The Bakery (Live Acoustic Version) - Arctic Monkeys

-----------------------------------------------------------------------------
      Hey, I saw this tab on ultimate-guitar by another person.  Parts of it were a
bit off, so I revised it a little bit.  It should be near 100% correct, if not, then atleast
correct than the other version.  The solo is completely different and I changed one or 
other parts.  As mentioned in the other tab, the part, "I wish I'd seen you down in
arcade..." near there, the chords go up to around the 9th/7th frets, you should be able 
pick it up by ear.

Again, this tab is not of the official album version, it's the live version.  To play
with it, just search Bakery Song on youtube.

Please feel free to revise my version in the comments section.

For further questions/comments:

myspace.com/bigglassesemoboi  (i'm not really emo)
email: bigglassesemoguy@gmail.com
-----------------------------------------------------------------------------
"The Bakery"

eBGDAE

A                     C#m           F#m
I wish you would have smiled in the bakery
                  Bm
Or sat on a tatty settee
Dm
At some mutual friend's gathering

A                        C#m
And the more you keep on looking
              F#m
The more it's hard to take
               Bm
Love, We're in stale mate

Dm                                  C#m
To never meet is surely where we're bound
                     Bm
There's one in every town
                          Dm***
Just there to grind you down

***
e|--1---5----9---13---|
B|--3---6----9---15---|
G|--2---7----9---14---|
D|--------------------|
A|--------------------|
E|--------------------|

A                   C#m             F#m
I wish I would have seen you in the post office
                     Bm
Well maybe I did and I missed it...
Dm
Too busy with the mind on clever rhymes

A           C#m                    F#m
why not the rounder's pitch or the canteen?
                                 Bm
You're slacking Love; where have you been?
Dm
Just had to go and wait until tonight...

Lead Guitar Solo:
e|-12--10--9--7--5--5/9--9--12p9--5/7--7--12--10--9--7--10--9--7----------|
B|-12--10--9--7--7------------------------------------------------9-------|
G|-13--11--9--7--7--------------------------------------------------------|
D|------------------------------------------------------------------------|
A|------------------------------------------------------------------------|
E|------------------------------------------------------------------------|

Rhythm guitar solo:
A C#m F#m Bm Dm


C#m            Bm
So give me the invite...
                 Dm***
Don't worry it's alright...

***
e|--1---5---10---13---|
B|--3---7---12---15---|
G|--2---6---11---14---|
D|--------------------|
A|--------------------|
E|--------------------|

A        C#m                         F#m
I wish I would have seen you down in the arcade
                  Bm     Dm                               A
Sipping on a lemonaid in the paper cup and chewing on the straw
               C#m         F#m
and I wish I'd seen you in the bakery
                           Bm     Dm
         But if
seen you in the bakery... (PAUSE)  you probably wouldn't have seen me
Optional outro: A F#m Dm F A

| /  slide up
| \  slide down
| h  hammer-on
| p  pull-off
| ~  vibrato
| +  harmonic
| x  Mute note                    

Commentaires pour tablature guitare — Bakery Live (var.2) (Arctic Monkeys)

Autres partitions pour Bakery Live (var.2) de Arctic Monkeys:

Dernières vues des partitions de Arctic Monkeys: